Friday, June 1, 2012

Cornerstone

CornerstoneA Christian song adapted by Hillsong. Part of the lyrics were taken from the hymn, "My Hope Is Built On Nothing Less" by Edward Mote. The title of the song can be taken from several bible references, and in Ephesians 2:19-22, Paul make it very clear that Jesus Christ is the chief Cornerstone, on whom all Christians and Christianity is built upon.

May our hope be built on nothing less than Jesus Christ, who is our righteousness, and on whom our faith is built upon. And just as the cornerstone in any bulding gives reference for where the other stones are to be placed, may we rely on Jesus to build our lives into a holy temple as His Spirit dwells in us.





-----------------------------------------------------------------
CORNERSTONE – Hillsong
-----------------------------------------------------------------
Tabbed by: Graham Choo
Email: da_tweens@yahoo.co.uk

Tuning: Standard (Capo 4th Fret)
Intro:
   G   Em  C9  D
e|-3---3---3---2-------------------------------------------------|
B|-3---3---3---3-------------------------------------------------|
G|-0---0---0---2-------------------------------------------------|
D|-0---2---2---0-------------------------------------------------|
A|-2---2---3-----------------------------------------------------|
E|-3---0---------------------------------------------------------|
Verse 1:
   G   C9  D   Em  D   C9  D   G
e|-3---3---2---3---2---3---2---3---------------------------------|
B|-3---3---3---3---3---3---3---3---------------------------------|
G|-0---0---2---0---2---0---2---0---------------------------------|
D|-0---2---0---2---0---2---0---0---------------------------------|
A|-2---3-------2-------3-------2---------------------------------|
E|-3-----------0---------------3---------------------------------|
Verse 1
Chorus:
   C9  Em  D  G/B  C9  Em  D   G   C9  Em  D
e|-3---3---2---3---3---3---2---3---3---3---2---------------------|
B|-3---3---3---3---3---3---3---3---3---3---3---------------------|
G|-0---0---2---0---0---0---2---0---0---0---2---------------------|
D|-2---2---0---0---2---2---0---0---2---2---0---------------------|
A|-3---2-------2---3---2-------2---3---2-------------------------|
E|-----0---------------0-------3-------0-------------------------|
Interlude:
   G
e|-3-------------------------------------------------------------|
B|-3-------------------------------------------------------------|
G|-0-------------------------------------------------------------|
D|-0-------------------------------------------------------------|
A|-2-------------------------------------------------------------|
E|-3-------------------------------------------------------------|
Verse 2:
   G   C9  D   Em  D   C9  D   G   C9  D   G
e|-3---3---2---3---2---3---2---3---3---2---3---------------------|
B|-3---3---3---3---3---3---3---3---3---3---3---------------------|
G|-0---0---2---0---2---0---2---0---0---2---0---------------------|
D|-0---2---0---2---0---2---0---0---2---0---0---------------------|
A|-2---3-------2-------3-------2---3-------2---------------------|
E|-3-----------0---------------3-----------3---------------------|
Chorus
Bridge:
   Em  C9  D   G
e|-3---3---2---3-------------------------------------------------|
B|-3---3---3---3-------------------------------------------------|
G|-0---0---2---0-------------------------------------------------|
D|-2---2---0---0-------------------------------------------------|
A|-2---3-------2-------------------------------------------------|
E|-0-----------3-------------------------------------------------|
Chorus
Interlude
Verse 1
Outro:
   G
e|-3-------------------------------------------------------------|
B|-3-------------------------------------------------------------|
G|-0-------------------------------------------------------------|
D|-0-------------------------------------------------------------|
A|-2-------------------------------------------------------------|
E|-3-------------------------------------------------------------|
| /  slide up
| \  slide down
| h  hammer-on
| p  pull-off
| ~  vibrato
| +  harmonic
| x  Mute note

Click HERE To Download PDF

1 comment:

firstoptionemb said...

This is beautiful.....