Saturday, September 29, 2012

Amazing

A Christian song by True Worshippers. The lyrics speak of how amazing our God is, and that He deserves all our praise and worship. And among all the great things God has done, the most amazing of all would be how He sent His only Son Jesus to live a perfect life on this earth, and to die an undeserving death on the cross, in order that through His death and resurrection, undeserving sinners like you and me might be saved.

You're amazing God! Never-changing in Your faithfulness and love toward us, that while we were still sinners, Christ died for us (Romans 5:8), saving us from Your wrath and reconciling us once again with You. Thank You Jesus!





-----------------------------------------------------------------
AMAZING – True Worshippers
-----------------------------------------------------------------
Tabbed by: Graham Choo
Email: da_tweens@yahoo.co.uk

Tuning: Standard (Capo 1st Fret)
Intro:
   E  C#m  A
e|-0---0---0-----------------------------------------------------|
B|-0---0---0-----------------------------------------------------|
G|-1---6---2-----------------------------------------------------|
D|-2---6---2-----------------------------------------------------|
A|-2---4---0-----------------------------------------------------|
E|-0-------------------------------------------------------------|
Verse:
  C#m  B   A  C#m  B   A
e|-0---0---0---0---0---0-----------------------------------------|
B|-0---0---0---0---0---0-----------------------------------------|
G|-6---4---2---6---4---2-----------------------------------------|
D|-6---4---2---6---4---2-----------------------------------------|
A|-4---2---0---4---2---0-----------------------------------------|
E|---------------------------------------------------------------|
Pre-Chorus:
  F#m G#m  A  C#m  B  F#m G#m  A   B
e|-0---0---0---0---0---0---0---0---0-----------------------------|
B|-0---0---0---0---0---0---0---0---0-----------------------------|
G|-2---4---2---6---4---2---4---2---4-----------------------------|
D|-4---6---2---6---4---4---6---2---4-----------------------------|
A|-4---6---0---4---2---4---6---0---2-----------------------------|
E|---------------------------------------------------------------|
Chorus:
   E  C#m  A   B   E  C#m F#m G#m  A   B
e|-0---0---0---0---0---0---0---0---0---0-------------------------|
B|-0---0---0---0---0---0---0---0---0---0-------------------------|
G|-1---6---2---4---1---6---2---4---2---4-------------------------|
D|-2---6---2---4---2---6---4---6---2---4-------------------------|
A|-2---4---0---2---2---4---4---6---0---2-------------------------|
E|-0---------------0---------------------------------------------|
Intro
Verse
Pre-Chorus
Chorus 2x
Outro:
   E  C#m  A   E  C#m  A   E
e|-0---0---0---0---0---0---0-------------------------------------|
B|-0---0---0---0---0---0---0-------------------------------------|
G|-1---6---2---1---6---2---1-------------------------------------|
D|-2---6---2---2---6---2---2-------------------------------------|
A|-2---4---0---2---4---0---2-------------------------------------|
E|-0-----------0-----------0-------------------------------------|
| /  slide up
| \  slide down
| h  hammer-on
| p  pull-off
| ~  vibrato
| +  harmonic
| x  Mute note

Click HERE To Download PDF

2 comments:

chords tabs said...

Really amazing. Thanks for provided a chords. Do you have music notes for this song?.

Graham Choo said...

Hey there, really sorry that we don't provide music notes. Reason being that we're not musically trained and have no idea how to write music notes. Hope the chords and tabs have been helpful so far though. God bless!