Monday, April 29, 2013

My Heart Is Filled With Thankfulness

My Heart Is Filled With ThankfulnessA Christian song by Keith & Kristyn Getty, and Stuart Townend. The lyrics speak of being thankful to God for all that Jesus has done for us. He took away our sins and gave us His righteousness instead. He sustains us in our journey of faith, fulfilling all His promises to us and showing us unending grace. He reigns on high and give us each day that we might follow Him.

Indeed our hearts are filled with thankfulness when we think of all that Jesus has done for us. And we respond in song, love, joy and gratitude to a God who first loved us. Thank You Jesus for all that you've done. We will give our life, our all, to love and follow You.





----------------------------------------------------------------------------------------------
MY HEART IS FILLED WITH THANKFULNESS – Keith & Kristyn Getty
----------------------------------------------------------------------------------------------
Tabbed by: Graham Choo
Email: da_tweens@yahoo.co.uk

Tuning: Standard (Capo 2nd Fret)
Intro:
   Em Dsus C9  Em Dsus C9 Dsus
e|-3---3---3---3---3---3---3-------------------------------------|
B|-3---3---3---3---3---3---3-------------------------------------|
G|-0---2---0---0---2---0---2-------------------------------------|
D|-2---0---2---2---0---2---0-------------------------------------|
A|-2-------3---2-------3-----------------------------------------|
E|-0-----------0-------------------------------------------------|
Verse:
   G   Em  C9 G/B  C9  G   Em  C9 G/B Dsus G
e|-3---3---3---3---3---3---3---3---3---3---3---------------------|
B|-3---3---3---3---3---3---3---3---3---3---3---------------------|
G|-0---0---0---0---0---0---0---0---0---2---0---------------------|
D|-0---2---2---0---2---0---2---2---0---0---0---------------------|
A|-2---2---3---2---3---2---2---3---2-------2---------------------|
E|-3---0---------------3---0---------------3---------------------|
Chorus 1:
   Em  C9 Dsus Em  C9 Dsus D   G   Em  C9 G/B Dsus
e|-3---3---3---3---3---3---2---3---3---3---3---3-----------------|
B|-3---3---3---3---3---3---3---3---3---3---3---3-----------------|
G|-0---0---2---0---0---2---2---0---0---0---0---2-----------------|
D|-2---2---0---2---2---0---0---0---2---2---0---0-----------------|
A|-2---3-------2---3-----------2---2---3---2---------------------|
E|-0-----------0---------------3---0-----------------------------|
Interlude:
   Em Dsus C9  Em Dsus C9 Dsus
e|-3---3---3---3---3---3---3-------------------------------------|
B|-3---3---3---3---3---3---3-------------------------------------|
G|-0---2---0---0---2---0---2-------------------------------------|
D|-2---0---2---2---0---2---0-------------------------------------|
A|-2-------3---2-------3-----------------------------------------|
E|-0-----------0-------------------------------------------------|
Verse
Chorus 1
Interlude
Verse 
Chorus 2:
   Em  C9 Dsus Em  C9 Dsus D   G   Em  C9 G/B Dsus G
e|-3---3---3---3---3---3---2---3---3---3---3---3---3-------------|
B|-3---3---3---3---3---3---3---3---3---3---3---3---3-------------|
G|-0---0---2---0---0---2---2---0---0---0---0---2---0-------------|
D|-2---2---0---2---2---0---0---0---2---2---0---0---0-------------|
A|-2---3-------2---3-----------2---2---3---2-------2-------------|
E|-0-----------0---------------3---0---------------3-------------| 
Chorus 2
| /  slide up
| \  slide down
| h  hammer-on
| p  pull-off
| ~  vibrato
| +  harmonic
| x  Mute note

Click HERE To Download PDF

2 comments:

Cristo Para Las naciones said...

Hola gracias por el video,me gusta tu blog,y todo lo que glorifica a Dio.
Bendiciones.
Te invito a mi blog:http://xtoparalasnaciones.blogspot.com/,espero te unas yo tambien me unire al tuyo.
saludos desde Lima_PerĂ¹.

SingaporeMemoryProject said...

Dear Graham & Daniel Choo,

On behalf of the National Library Board (NLB), we would like to invite you to pledge your blog to the Singapore Memory Project as part of efforts to collect memories that are already manifested in existing online channels.

The Singapore Memory Project (SMP) is a national initiative to collect, preserve and provide access to Singapore’s knowledge materials. Spearheaded by NLB, the SMP aims to build a national collection of content in diverse formats (including print, audio and video), to preserve them in digital form, and make them available for discovery and research.

By pledging your blog to SMP, you are affirming that every memory matters. Whether your posts are an account of your daily life, or an expression of your thoughts, the SMP hopes to find a home for your memories so that it can help build towards an understanding of Singapore. You will also receive a badge that you can display on your blog in recognition of your contributions.

Contributors to this blog pledging initiative will be listed on Singapore Memory portal’s blog pledging webpage. All blogs pledged to SMP will archived using NLB’s web harvesting software, in addition to images of each blog’s landing page.

If you are keen to pledge your blog to SMP, simply fill up our response form at this following URL: http://singaporememory.simulation.com.sg/Public/Pledge.

You may find out more about this initiative at http://www.iremember.sg/?page_id=2822.

We are looking forward to your contribution. Do also let your fellow bloggers know about this initiative. They can pledge via the URL above.


|Simulation Software & Technology (S2T) Pte Ltd 583 Orchard Road #14-02 Forum The Shopping Mall S(238884) w: www.simulation.com.sg