Friday, January 31, 2014

Thanks To God

A Christian hymn by August L. Storm. This is a song of thanksgiving to God who has saved and redeemed us through Jesus, answered our prayers and sustained us through times of trials, and blessed us with experiences with which we can enjoy and look forward to eternity with Him. Paul in his letter to the church in Philippi in Philippians 4:6-7, exhorts them to not be anxious about anything but to offer their prayers to God with thanksgiving. And God's peace will continue to guard their hearts and minds in Christ Jesus.

Indeed let us thank God in every situation for He has saved us through Jesus, and has loved us with an everlasting love. God promises to be with us and to never leave or forsake us. And we know we can depend on Him to keep His promises.





-----------------------------------------------------------------
THANKS TO GOD – August L. Storm
-----------------------------------------------------------------
Tabbed by: Graham Choo
Email: da_tweens@yahoo.co.uk

Tuning: Standard
Intro:
   G
e|-3-------------------------------------------------------------|
B|-3-------------------------------------------------------------|
G|-0-------------------------------------------------------------|
D|-0-------------------------------------------------------------|
A|-2-------------------------------------------------------------|
E|-3-------------------------------------------------------------|
Verse:
   G   D   G   C9  G   D   G   C9  G   Em  D   G   C9  G   D   G
e|-3---2---3---3---3---2---3---3---3---3---2---3---3---3---2---3-|
B|-3---3---3---3---3---3---3---3---3---3---3---3---3---3---3---3-|
G|-0---2---0---0---0---2---0---0---0---0---2---0---0---0---2---0-|
D|-0---0---0---2---0---0---0---2---0---2---0---0---2---0---0---0-|
A|-2-------2---3---2-------2---3---2---2-------2---3---2-------2-|
E|-3-------3-------3-------3-------3---0-------3-------3-------3-|
Verse (2x)
Outro:
   C9  G
e|-3---3---------------------------------------------------------|
B|-3---3---------------------------------------------------------|
G|-0---0---------------------------------------------------------|
D|-2---0---------------------------------------------------------|
A|-3---2---------------------------------------------------------|
E|-----3---------------------------------------------------------|
| /  slide up
| \  slide down
| h  hammer-on
| p  pull-off
| ~  vibrato
| +  harmonic
| x  Mute note

Click HERE To Download PDF

1 comment:

Johnson PYS said...

Thank you very much, brother Choo. :)