Sunday, March 9, 2014

I Know Who Holds Tomorrow

A Christian song by Ira Stanphill. The lyrics speak of the uncertainty of life and what it brings, but reminds us of the certainty of our God who knows and who looks after us. In Matthew 6:25-34, Jesus teaches his disciples not to worry about the things that they need, for the Father knows and provides for us. But Jesus instructs them to first seek God's kingdom and righteousness, and all these things will be provided for.

What good advice Jesus gives to those who worry too much. Instead of worrying about things we cannot control, we should place our trust in a God who provides for those He loves. And He has constantly shown that love for His people Israel throughout history, culminating in the sending of His Son, Jesus who is the ultimate expression of God's love. And so we thank God for all that He has done, and continue to place our trust in Him for all our needs. For we know who holds tomorrow, and we know who holds our hands!





-------------------------------------------------------------------
I KNOW WHO HOLDS TOMORROW – Ira Stanphill
-------------------------------------------------------------------
Tabbed by: Graham Choo
Email: da_tweens@yahoo.co.uk

Tuning: Standard
Intro:
   G
e|-3-------------------------------------------------------------|
B|-3-------------------------------------------------------------|
G|-0-------------------------------------------------------------|
D|-0-------------------------------------------------------------|
A|-2-------------------------------------------------------------|
E|-3-------------------------------------------------------------|
Verse:
   G   G7  C   G   C   G   Em  D   G   G7  C   G   C   G   D   G
e|-3---1---0---3---0---3---3---2---3---1---0---3---0---3---2---3-|
B|-3---0---1---3---1---3---3---3---3---0---1---3---1---3---3---3-|
G|-0---0---0---0---0---0---0---2---0---0---0---0---0---0---2---0-|
D|-0---0---2---0---2---0---2---0---0---0---2---0---2---0---0---0-|
A|-2---2---3---2---3---2---2-------2---2---3---2---3---2-------2-|
E|-3---3-------3-------3---0-------3---3-------3-------3-------3-|
Chorus:
   C   G   Em  D   G   C   G   D   G
e|-0---3---3---2---3---0---3---2---3-----------------------------|
B|-1---3---3---3---3---1---3---3---3-----------------------------|
G|-0---0---0---2---0---0---0---2---0-----------------------------|
D|-2---0---2---0---0---2---0---0---0-----------------------------|
A|-3---2---2-------2---3---2-------2-----------------------------|
E|-----3---0-------3-------3-------3-----------------------------|
Verse
Chorus
Outro:
   G
e|-3-------------------------------------------------------------|
B|-3-------------------------------------------------------------|
G|-0-------------------------------------------------------------|
D|-0-------------------------------------------------------------|
A|-2-------------------------------------------------------------|
E|-3-------------------------------------------------------------|
| /  slide up
| \  slide down
| h  hammer-on
| p  pull-off
| ~  vibrato
| +  harmonic
| x  Mute note

Click HERE To Download PDF

2 comments:

patched-up said...

really really really good song.. Love It! =)

-alvin

nisha jain said...

Thanks for sharing nice post. i like this lovely song . In this video music of guitar is very nice.
______________
acoustic guitar classes in jaipur