Sunday, March 30, 2014

We Want To See Jesus Lifted High

We Want To See Jesus Lifted HighA Christian song by Doug Horley. The lyrics speak of our desire to see Jesus lifted high so that others will know that He is the only way to heaven. In John 3:14-15, Jesus referred to an event that happened during the Israelites' exodus from Egypt where they had grumbled against God for bringing them out from Egypt without food and water. And he punished them by sending venomous snakes to bite and kill them. And God provided a way out in that whoever looked upon a bronze snake that was lifted up on a pole, he would be saved and live. This was fulfilled in Jesus as well in that when He is lifted up on the cross to fulfill God's salvation plan for mankind, all who look to Him will be saved.

Jesus has been lifted high and all who believe in Him will be saved. We thank God for His great wisdom in this, and we continue to do our part in proclaiming Jesus as the only way to the Father.





--------------------------------------------------------------------------
WE WANT TO SEE JESUS LIFTED HIGH – Doug Horley
--------------------------------------------------------------------------
Tabbed by: Graham Choo
Email: da_tweens@yahoo.co.uk

Tuning: Standard
Intro:
   E   B  C#m  A   E   B  C#m  A
e|----------------------------------------------------------------|
B|-----0x--0x--0x------0x--0x--0x---------------------------------|
G|-1x--4x--6x--2x--1x--4x--6x--2x---------------------------------|
D|-2x--4x--6x--2x--2x--4x--6x--2x---------------------------------|
A|-2x--2x--4x--0x--2x--2x--4x--0x---------------------------------|
E|-0x--------------0x---------------------------------------------|
Verse 1:
   E   B  C#m  A   E   B  C#m  A   E   B  C#m  A   E   B  C#m  A
e|----------------------------------------------------------------|
B|-----0x--0x--0x------0x--0x--0x------0x--0x--0x------0x--0x--0x-|
G|-1x--4x--6x--2x--1x--4x--6x--2x--1x--4x--6x--2x--1x--4x--6x--2x-|
D|-2x--4x--6x--2x--2x--4x--6x--2x--2x--4x--6x--2x--2x--4x--6x--2x-|
A|-2x--2x--4x--0x--2x--2x--4x--0x--2x--2x--4x--0x--2x--2x--4x--0x-|
E|-0x--------------0x--------------0x--------------0x-------------|
Chorus:
   E   B  C#m  A   B   E   B  C#m  A   B
e|-0---0---4---0---0---0---0---4---0---0--------------------------|
B|-0---0---5---0---0---0---0---5---0---0--------------------------|
G|-1---4---6---2---4---1---4---6---2---4--------------------------|
D|-2---4---6---2---4---2---4---6---2---4--------------------------|
A|-2---2---4---0---2---2---2---4---0---2--------------------------|
E|-0-------------------0------------------------------------------|
Verse 2
   E   B  C#m  A   E   B  C#m  A   E   B  C#m  A   E   B  C#m  A
e|-0---0---0---0---0---0---0---0---0---0---0---0---0---0---0---0--|
B|-0---0---0---0---0---0---0---0---0---0---0---0---0---0---0---0--|
G|-1---4---6---2---1---4---6---2---1---4---6---2---1---4---6---2--|
D|-2---4---6---2---2---4---6---2---2---4---6---2---2---4---6---2--|
A|-2---2---4---0---2---2---4---0---2---2---4---0---2---2---4---0--|
E|-0---------------0---------------0---------------0--------------|
Chorus
Bridge:
   E   B  C#m  B  C#m  B  C#m  E   B
e|-0---0---0---0---0---0---0---0---0------------------------------|
B|-0---0---0---0---0---0---0---0---0------------------------------|
G|-1---4---6---4---6---4---6---1---4------------------------------|
D|-2---4---6---4---6---4---6---2---4------------------------------|
A|-2---2---4---2---4---2---4---2---2------------------------------|
E|-0---------------------------0----------------------------------|
Chorus 2x
Outro:
   E
e|-0--------------------------------------------------------------|
B|-0--------------------------------------------------------------|
G|-1--------------------------------------------------------------|
D|-2--------------------------------------------------------------|
A|-2--------------------------------------------------------------|
E|-0--------------------------------------------------------------|
| /  slide up
| \  slide down
| h  hammer-on
| p  pull-off
| ~  vibrato
| +  harmonic
| x  Mute note

Click HERE To Download PDF

1 comment:

Kevin Akaranga said...

Halo Daniel i have been seeing your videos on youtube and i have been blessed because am a beginner in guitar and a drummer your videos will surely help me in leraning song progression because thats my biggest challenge i have.
I also would like to do covers when am ready thanks God bless
Kevin Akaranga musiceffectz.blogspot.com