Sunday, March 22, 2015

Thank You Jesus

A classic Christian song by Alison Huntley Revell. The lyrics speak of thanking Jesus for His great love for us. This is the right response to our Saviour who has loved and showered upon us grace upon grace - To thank and praise Him for all that He has done in cleansing us from our sin and redeeming us with His shed blood. Thank You Jesus!





-----------------------------------------------------------------
THANK YOU JESUS – Alison Huntley Revell
-----------------------------------------------------------------
Tabbed by: Graham Choo
Email: da_tweens@yahoo.co.uk

Tuning: Standard
Intro:
   C        Csus       C         C7
e|-0-------0-0-------0-0-------0-0-------------------------------|
B|-1---1-----1---1-----1---1-----1-------------------------------|
G|-0-0---0---0-0---0---0-0---0---3-------------------------------|
D|-2---------3---------2---------2-------------------------------|
A|-3---------3---------3---------3-------------------------------|
E|---------------------------------------------------------------|
Verse:
   Dm        G         C         Am
e|-1-------1-3-------3-0-------0-0-------0-----------------------|
B|-3---3-----3---3-----1---1-----1---1---------------------------|
G|-2-2---2---0-0---0---0-0---0---2-2---2-------------------------|
D|-0---------0---------2---------2-------------------------------|
A|-----------2---------3---------0-------------------------------|
E|-----------3---------------------------------------------------|
   Dm        G         C         C7
e|-1-------1-3-------3-0-------0-0-------0-----------------------|
B|-3---3-----3---3-----1---1-----1---1---------------------------|
G|-2-2---2---0-0---0---0-0---0---3-3---3-------------------------|
D|-0---------0---------2---------2-------------------------------|
A|-----------2---------3---------3-------------------------------|
E|-----------3---------------------------------------------------|
   F         G         Em        Am
e|-1-------1-3-------3-0-------0-0-------0-----------------------|
B|-1---1-----3---3-----0---0-----1---1---------------------------|
G|-2-2---2---0-0---0---0-0---0---2-2---2-------------------------|
D|-3---------0---------2---------2-------------------------------|
A|-3---------2---------2---------0-------------------------------|
E|-1---------3---------0-----------------------------------------|
   Dm        G         C       
e|-1-------1-3-------3-0-------0---------------------------------|
B|-3---3-----3---3-----1---1-------------------------------------|
G|-2-2---2---0-0---0---0-0---0-----------------------------------|
D|-0---------0---------2-----------------------------------------|
A|-----------2---------3-----------------------------------------|
E|-----------3---------------------------------------------------|
Interlude:
   C7
e|-0-------0-----------------------------------------------------|
B|-1---1---------------------------------------------------------|
G|-3-3---3-------------------------------------------------------|
D|-2-------------------------------------------------------------|
A|-3-------------------------------------------------------------|
E|---------------------------------------------------------------|
Verse
Outro:
   C
e|-0-------------------------------------------------------------|
B|-1-------------------------------------------------------------|
G|-0-------------------------------------------------------------|
D|-2-------------------------------------------------------------|
A|-3-------------------------------------------------------------|
E|---------------------------------------------------------------|
| /  slide up
| \  slide down
| h  hammer-on
| p  pull-off
| ~  vibrato
| +  harmonic
| x  Mute note

Click HERE To Download PDF

1 comment:

Moses Mano said...

Hello!!
Great job you 2!!
For Christian Piano Chords please visit gospelmusicchords.blogspot.com